ISO-10303-21;
HEADER;
FILE_DESCRIPTION (( 'STEP AP203' ),
    '1' );
FILE_NAME ('QM-AAHWP-15-550-750-M.STEP',
    '2021-01-05T02:33:00',
    ( '' ),
    ( '' ),
    'SwSTEP 2.0',
    'SolidWorks 2020',
    '' );
FILE_SCHEMA (( 'CONFIG_CONTROL_DESIGN' ));
ENDSEC;

DATA;
#1 = CYLINDRICAL_SURFACE ( 'NONE', #38, 12.69999999999999929 ) ;
#2 = EDGE_LOOP ( 'NONE', ( #28, #231, #106, #88 ) ) ;
#3 = APPROVAL_ROLE ( '' ) ;
#4 = CARTESIAN_POINT ( 'NONE',  ( 3.000000000000000000, 0.000000000000000000, 0.000000000000000000 ) ) ;
#5 = VERTEX_POINT ( 'NONE', #279 ) ;
#6 = PRODUCT_DEFINITION ( 'UNKNOWN', '', #121, #74 ) ;
#7 = APPROVAL_DATE_TIME ( #271, #18 ) ;
#8 = CARTESIAN_POINT ( 'NONE',  ( 3.000000000000000000, 12.69999999999999929, 0.000000000000000000 ) ) ;
#9 = DIRECTION ( 'NONE',  ( 0.000000000000000000, 0.000000000000000000, -1.000000000000000000 ) ) ;
#10 = AXIS2_PLACEMENT_3D ( 'NONE', #334, #316, #207 ) ;
#11 = CC_DESIGN_PERSON_AND_ORGANIZATION_ASSIGNMENT ( #212, #112, ( #121 ) ) ;
#12 = APPROVAL_ROLE ( '' ) ;
#13 = AXIS2_PLACEMENT_3D ( 'NONE', #251, #171, #281 ) ;
#14 = ORIENTED_EDGE ( 'NONE', *, *, #105, .T. ) ;
#15 = UNCERTAINTY_MEASURE_WITH_UNIT (LENGTH_MEASURE( 1.000000000000000082E-05 ), #57, 'distance_accuracy_value', 'NONE');
#16 = AXIS2_PLACEMENT_3D ( 'NONE', #310, #261, #126 ) ;
#17 = AXIS2_PLACEMENT_3D ( 'NONE', #108, #259, #100 ) ;
#18 = APPROVAL ( #134, 'UNSPECIFIED' ) ;
#19 = CC_DESIGN_PERSON_AND_ORGANIZATION_ASSIGNMENT ( #327, #92, ( #6 ) ) ;
#20 = DIRECTION ( 'NONE',  ( 0.000000000000000000, 0.000000000000000000, -1.000000000000000000 ) ) ;
#21 = EDGE_LOOP ( 'NONE', ( #14, #302 ) ) ;
#22 = DIRECTION ( 'NONE',  ( -1.000000000000000000, -0.000000000000000000, -0.000000000000000000 ) ) ;
#23 = DIRECTION ( 'NONE',  ( -1.000000000000000000, -0.000000000000000000, -0.000000000000000000 ) ) ;
#24 = ORGANIZATION ( 'UNSPECIFIED', 'UNSPECIFIED', '' ) ;
#25 = DIRECTION ( 'NONE',  ( 0.000000000000000000, 0.000000000000000000, -1.000000000000000000 ) ) ;
#26 = ORIENTED_EDGE ( 'NONE', *, *, #81, .T. ) ;
#27 = FACE_OUTER_BOUND ( 'NONE', #2, .T. ) ;
#28 = ORIENTED_EDGE ( 'NONE', *, *, #299, .F. ) ;
#29 = LOCAL_TIME ( 10, 33, 0.000000000000000000, #82 ) ;
#30 = PLANE ( 'NONE',  #99 ) ;
#31 = PLANE ( 'NONE',  #117 ) ;
#32 = CALENDAR_DATE ( 2021, 5, 1 ) ;
#33 = FACE_OUTER_BOUND ( 'NONE', #127, .T. ) ;
#34 = CARTESIAN_POINT ( 'NONE',  ( 0.000000000000000000, 0.000000000000000000, 0.000000000000000000 ) ) ;
#35 = PERSON_AND_ORGANIZATION ( #219, #24 ) ;
#36 = VERTEX_POINT ( 'NONE', #195 ) ;
#37 = CARTESIAN_POINT ( 'NONE',  ( 3.000000000000000000, 0.000000000000000000, 0.000000000000000000 ) ) ;
#38 = AXIS2_PLACEMENT_3D ( 'NONE', #229, #309, #73 ) ;
#39 = DIRECTION ( 'NONE',  ( 1.000000000000000000, 0.000000000000000000, 0.000000000000000000 ) ) ;
#40 = LINE ( 'NONE', #147, #124 ) ;
#41 = ORIENTED_EDGE ( 'NONE', *, *, #235, .T. ) ;
#42 = CIRCLE ( 'NONE', #278, 12.69999999999999929 ) ;
#43 = CARTESIAN_POINT ( 'NONE',  ( -3.000000000000000000, 0.000000000000000000, 0.000000000000000000 ) ) ;
#44 = PLANE ( 'NONE',  #158 ) ;
#45 = AXIS2_PLACEMENT_3D ( 'NONE', #226, #222, #98 ) ;
#46 = AXIS2_PLACEMENT_3D ( 'NONE', #4, #23, #332 ) ;
#47 = FACE_OUTER_BOUND ( 'NONE', #182, .T. ) ;
#48 = CARTESIAN_POINT ( 'NONE',  ( 0.5000000000000008882, 9.184850993605147944E-16, -7.500000000000000000 ) ) ;
#49 = ORIENTED_EDGE ( 'NONE', *, *, #244, .F. ) ;
#50 = ADVANCED_FACE ( 'NONE', ( #194, #67 ), #66, .F. ) ;
#51 = CARTESIAN_POINT ( 'NONE',  ( 0.5000000000000004441, 7.500000000000000000, 0.000000000000000000 ) ) ;
#52 = EDGE_LOOP ( 'NONE', ( #208, #190 ) ) ;
#53 = CARTESIAN_POINT ( 'NONE',  ( -1.614212418857619014, 9.184850993605145972E-16, -7.499999999999998224 ) ) ;
#54 = EDGE_CURVE ( 'NONE', #305, #156, #68, .T. ) ;
#55 = VERTEX_POINT ( 'NONE', #94 ) ;
#56 = COORDINATED_UNIVERSAL_TIME_OFFSET ( 8, 0, .AHEAD. ) ;
#57 =( LENGTH_UNIT ( ) NAMED_UNIT ( * ) SI_UNIT ( .MILLI., .METRE. ) );
#58 = CC_DESIGN_APPROVAL ( #72, ( #6 ) ) ;
#59 = DIRECTION ( 'NONE',  ( 1.000000000000000000, 0.000000000000000000, 0.000000000000000000 ) ) ;
#60 = EDGE_CURVE ( 'NONE', #266, #156, #250, .T. ) ;
#61 = ORIENTED_EDGE ( 'NONE', *, *, #129, .T. ) ;
#62 = VECTOR ( 'NONE', #63, 1000.000000000000000 ) ;
#63 = DIRECTION ( 'NONE',  ( -1.000000000000000000, -0.000000000000000000, -0.000000000000000000 ) ) ;
#64 = LOCAL_TIME ( 10, 33, 0.000000000000000000, #189 ) ;
#65 = DIRECTION ( 'NONE',  ( -1.000000000000000000, -0.000000000000000000, -0.000000000000000000 ) ) ;
#66 = PLANE ( 'NONE',  #87 ) ;
#67 = FACE_OUTER_BOUND ( 'NONE', #315, .T. ) ;
#68 = CIRCLE ( 'NONE', #198, 7.500000000000000000 ) ;
#69 = AXIS2_PLACEMENT_3D ( 'NONE', #71, #128, #174 ) ;
#70 = DIRECTION ( 'NONE',  ( -1.000000000000000000, -0.000000000000000000, -0.000000000000000000 ) ) ;
#71 = CARTESIAN_POINT ( 'NONE',  ( -1.614212418857619014, 0.000000000000000000, 0.000000000000000000 ) ) ;
#72 = APPROVAL ( #247, 'UNSPECIFIED' ) ;
#73 = DIRECTION ( 'NONE',  ( 0.000000000000000000, 0.000000000000000000, 1.000000000000000000 ) ) ;
#74 = DESIGN_CONTEXT ( 'detailed design', #176, 'design' ) ;
#75 = AXIS2_PLACEMENT_3D ( 'NONE', #335, #102, #288 ) ;
#76 = FACE_OUTER_BOUND ( 'NONE', #93, .T. ) ;
#77 = EDGE_LOOP ( 'NONE', ( #328, #133 ) ) ;
#78 = APPROVAL_DATE_TIME ( #313, #115 ) ;
#79 = FACE_OUTER_BOUND ( 'NONE', #77, .T. ) ;
#80 = EDGE_LOOP ( 'NONE', ( #210, #268, #49, #163 ) ) ;
#81 = EDGE_CURVE ( 'NONE', #156, #305, #227, .T. ) ;
#82 = COORDINATED_UNIVERSAL_TIME_OFFSET ( 8, 0, .AHEAD. ) ;
#83 = VERTEX_POINT ( 'NONE', #172 ) ;
#84 = CIRCLE ( 'NONE', #263, 7.499999999999997335 ) ;
#85 = DATE_TIME_ROLE ( 'creation_date' ) ;
#86 = CC_DESIGN_APPROVAL ( #115, ( #103 ) ) ;
#87 = AXIS2_PLACEMENT_3D ( 'NONE', #256, #39, #20 ) ;
#88 = ORIENTED_EDGE ( 'NONE', *, *, #211, .T. ) ;
#89 = DATE_AND_TIME ( #32, #113 ) ;
#90 = LINE ( 'NONE', #53, #265 ) ;
#91 = CC_DESIGN_PERSON_AND_ORGANIZATION_ASSIGNMENT ( #186, #272, ( #304 ) ) ;
#92 = PERSON_AND_ORGANIZATION_ROLE ( 'creator' ) ;
#93 = EDGE_LOOP ( 'NONE', ( #248, #131, #301, #290 ) ) ;
#94 = CARTESIAN_POINT ( 'NONE',  ( -0.5000000000000004441, 0.000000000000000000, 7.499999999999998224 ) ) ;
#95 = EDGE_LOOP ( 'NONE', ( #109, #135 ) ) ;
#96 = DIRECTION ( 'NONE',  ( -1.000000000000000000, -0.000000000000000000, -0.000000000000000000 ) ) ;
#97 = ORIENTED_EDGE ( 'NONE', *, *, #206, .T. ) ;
#98 = DIRECTION ( 'NONE',  ( 0.000000000000000000, 0.000000000000000000, 1.000000000000000000 ) ) ;
#99 = AXIS2_PLACEMENT_3D ( 'NONE', #51, #202, #264 ) ;
#100 = DIRECTION ( 'NONE',  ( 0.000000000000000000, 0.000000000000000000, 1.000000000000000000 ) ) ;
#101 = CARTESIAN_POINT ( 'NONE',  ( 3.000000000000000000, 0.000000000000000000, 7.499999999999997335 ) ) ;
#102 = DIRECTION ( 'NONE',  ( -1.000000000000000000, -0.000000000000000000, -0.000000000000000000 ) ) ;
#103 = SECURITY_CLASSIFICATION ( '', '', #183 ) ;
#104 = CARTESIAN_POINT ( 'NONE',  ( -1.614212418857619014, 0.000000000000000000, 0.000000000000000000 ) ) ;
#105 = EDGE_CURVE ( 'NONE', #238, #317, #84, .T. ) ;
#106 = ORIENTED_EDGE ( 'NONE', *, *, #150, .T. ) ;
#107 = PERSON_AND_ORGANIZATION_ROLE ( 'creator' ) ;
#108 = CARTESIAN_POINT ( 'NONE',  ( 0.5000000000000008882, 0.000000000000000000, 0.000000000000000000 ) ) ;
#109 = ORIENTED_EDGE ( 'NONE', *, *, #280, .F. ) ;
#110 = PERSON_AND_ORGANIZATION ( #219, #24 ) ;
#111 = ORIENTED_EDGE ( 'NONE', *, *, #276, .F. ) ;
#112 = PERSON_AND_ORGANIZATION_ROLE ( 'design_supplier' ) ;
#113 = LOCAL_TIME ( 10, 33, 0.000000000000000000, #269 ) ;
#114 = SHAPE_DEFINITION_REPRESENTATION ( #333, #255 ) ;
#115 = APPROVAL ( #295, 'UNSPECIFIED' ) ;
#116 = VECTOR ( 'NONE', #96, 1000.000000000000000 ) ;
#117 = AXIS2_PLACEMENT_3D ( 'NONE', #8, #213, #267 ) ;
#118 = EDGE_LOOP ( 'NONE', ( #277, #179 ) ) ;
#119 = CLOSED_SHELL ( 'NONE', ( #146, #291, #168, #258, #237, #197, #50, #188, #324, #287 ) ) ;
#120 = ORIENTED_EDGE ( 'NONE', *, *, #141, .F. ) ;
#121 = PRODUCT_DEFINITION_FORMATION_WITH_SPECIFIED_SOURCE ( 'ANY', '', #304, .NOT_KNOWN. ) ;
#122 = CARTESIAN_POINT ( 'NONE',  ( -3.000000000000000000, 9.184850993605147944E-16, -7.500000000000000000 ) ) ;
#123 = CARTESIAN_POINT ( 'NONE',  ( -1.614212418857619014, 0.000000000000000000, 12.69999999999999929 ) ) ;
#124 = VECTOR ( 'NONE', #252, 1000.000000000000000 ) ;
#125 = DIRECTION ( 'NONE',  ( -1.000000000000000000, -0.000000000000000000, -0.000000000000000000 ) ) ;
#126 = DIRECTION ( 'NONE',  ( 0.000000000000000000, 0.000000000000000000, 1.000000000000000000 ) ) ;
#127 = EDGE_LOOP ( 'NONE', ( #293, #312, #26, #275 ) ) ;
#128 = DIRECTION ( 'NONE',  ( -1.000000000000000000, -0.000000000000000000, -0.000000000000000000 ) ) ;
#129 = EDGE_CURVE ( 'NONE', #262, #36, #225, .T. ) ;
#130 = AXIS2_PLACEMENT_3D ( 'NONE', #104, #204, #155 ) ;
#131 = ORIENTED_EDGE ( 'NONE', *, *, #299, .T. ) ;
#132 = DIRECTION ( 'NONE',  ( 1.000000000000000000, 0.000000000000000000, 0.000000000000000000 ) ) ;
#133 = ORIENTED_EDGE ( 'NONE', *, *, #160, .F. ) ;
#134 = APPROVAL_STATUS ( 'not_yet_approved' ) ;
#135 = ORIENTED_EDGE ( 'NONE', *, *, #206, .F. ) ;
#136 = EDGE_CURVE ( 'NONE', #55, #305, #170, .T. ) ;
#137 = DATE_TIME_ROLE ( 'classification_date' ) ;
#138 = APPROVAL_PERSON_ORGANIZATION ( #185, #115, #294 ) ;
#139 = APPLICATION_PROTOCOL_DEFINITION ( 'international standard', 'config_control_design', 1994, #176 ) ;
#140 = DATE_AND_TIME ( #215, #64 ) ;
#141 = EDGE_CURVE ( 'NONE', #83, #36, #192, .T. ) ;
#142 = ORIENTED_EDGE ( 'NONE', *, *, #141, .T. ) ;
#143 = AXIS2_PLACEMENT_3D ( 'NONE', #154, #125, #178 ) ;
#144 = CARTESIAN_POINT ( 'NONE',  ( -1.614212418857619014, 0.000000000000000000, 7.499999999999998224 ) ) ;
#145 = DIRECTION ( 'NONE',  ( 0.000000000000000000, 0.000000000000000000, 1.000000000000000000 ) ) ;
#146 = ADVANCED_FACE ( 'NONE', ( #223 ), #200, .T. ) ;
#147 = CARTESIAN_POINT ( 'NONE',  ( -1.614212418857619014, 0.000000000000000000, 7.499999999999998224 ) ) ;
#148 = CC_DESIGN_SECURITY_CLASSIFICATION ( #103, ( #121 ) ) ;
#149 = DIRECTION ( 'NONE',  ( 0.000000000000000000, 0.000000000000000000, 1.000000000000000000 ) ) ;
#150 = EDGE_CURVE ( 'NONE', #238, #5, #40, .T. ) ;
#151 = DIRECTION ( 'NONE',  ( 0.000000000000000000, 0.000000000000000000, 1.000000000000000000 ) ) ;
#152 = CARTESIAN_POINT ( 'NONE',  ( -0.5000000000000004441, 7.500000000000000000, 0.000000000000000000 ) ) ;
#153 = CIRCLE ( 'NONE', #75, 7.500000000000000000 ) ;
#154 = CARTESIAN_POINT ( 'NONE',  ( 3.000000000000000000, 0.000000000000000000, 0.000000000000000000 ) ) ;
#155 = DIRECTION ( 'NONE',  ( 0.000000000000000000, 0.000000000000000000, 1.000000000000000000 ) ) ;
#156 = VERTEX_POINT ( 'NONE', #122 ) ;
#157 = PERSON_AND_ORGANIZATION_ROLE ( 'classification_officer' ) ;
#158 = AXIS2_PLACEMENT_3D ( 'NONE', #152, #165, #9 ) ;
#159 = ORIENTED_EDGE ( 'NONE', *, *, #60, .F. ) ;
#160 = EDGE_CURVE ( 'NONE', #220, #5, #318, .T. ) ;
#161 = ORIENTED_EDGE ( 'NONE', *, *, #136, .T. ) ;
#162 =( NAMED_UNIT ( * ) SI_UNIT ( $, .STERADIAN. ) SOLID_ANGLE_UNIT ( ) );
#163 = ORIENTED_EDGE ( 'NONE', *, *, #129, .F. ) ;
#164 = CALENDAR_DATE ( 2021, 5, 1 ) ;
#165 = DIRECTION ( 'NONE',  ( 1.000000000000000000, 0.000000000000000000, 0.000000000000000000 ) ) ;
#166 = DIRECTION ( 'NONE',  ( -1.000000000000000000, -0.000000000000000000, -0.000000000000000000 ) ) ;
#167 = APPROVAL_DATE_TIME ( #300, #72 ) ;
#168 = ADVANCED_FACE ( 'NONE', ( #76 ), #201, .F. ) ;
#169 = PRODUCT_RELATED_PRODUCT_CATEGORY ( 'detail', '', ( #304 ) ) ;
#170 = LINE ( 'NONE', #144, #306 ) ;
#171 = DIRECTION ( 'NONE',  ( -1.000000000000000000, -0.000000000000000000, -0.000000000000000000 ) ) ;
#172 = CARTESIAN_POINT ( 'NONE',  ( -3.000000000000000000, 1.555301434917138433E-15, -12.69999999999999929 ) ) ;
#173 = DIRECTION ( 'NONE',  ( -1.000000000000000000, -0.000000000000000000, -0.000000000000000000 ) ) ;
#174 = DIRECTION ( 'NONE',  ( 0.000000000000000000, 0.000000000000000000, 1.000000000000000000 ) ) ;
#175 = DIRECTION ( 'NONE',  ( -1.000000000000000000, -0.000000000000000000, -0.000000000000000000 ) ) ;
#176 = APPLICATION_CONTEXT ( 'configuration controlled 3d designs of mechanical parts and assemblies' ) ;
#177 = DIRECTION ( 'NONE',  ( -1.000000000000000000, -0.000000000000000000, -0.000000000000000000 ) ) ;
#178 = DIRECTION ( 'NONE',  ( 0.000000000000000000, 0.000000000000000000, 1.000000000000000000 ) ) ;
#179 = ORIENTED_EDGE ( 'NONE', *, *, #235, .F. ) ;
#180 = CALENDAR_DATE ( 2021, 5, 1 ) ;
#181 = APPROVAL_PERSON_ORGANIZATION ( #35, #72, #12 ) ;
#182 = EDGE_LOOP ( 'NONE', ( #111, #97, #61, #120 ) ) ;
#183 = SECURITY_CLASSIFICATION_LEVEL ( 'unclassified' ) ;
#184 = CARTESIAN_POINT ( 'NONE',  ( 3.000000000000000000, 1.555301434917138433E-15, -12.69999999999999929 ) ) ;
#185 = PERSON_AND_ORGANIZATION ( #219, #24 ) ;
#186 = PERSON_AND_ORGANIZATION ( #219, #24 ) ;
#187 = PERSON_AND_ORGANIZATION ( #219, #24 ) ;
#188 = ADVANCED_FACE ( 'NONE', ( #47 ), #1, .T. ) ;
#189 = COORDINATED_UNIVERSAL_TIME_OFFSET ( 8, 0, .AHEAD. ) ;
#190 = ORIENTED_EDGE ( 'NONE', *, *, #81, .F. ) ;
#191 = CC_DESIGN_DATE_AND_TIME_ASSIGNMENT ( #140, #85, ( #6 ) ) ;
#192 = CIRCLE ( 'NONE', #45, 12.69999999999999929 ) ;
#193 = CIRCLE ( 'NONE', #143, 7.499999999999997335 ) ;
#194 = FACE_BOUND ( 'NONE', #52, .T. ) ;
#195 = CARTESIAN_POINT ( 'NONE',  ( -3.000000000000000000, 0.000000000000000000, 12.69999999999999929 ) ) ;
#196 = CC_DESIGN_PERSON_AND_ORGANIZATION_ASSIGNMENT ( #321, #157, ( #103 ) ) ;
#197 = ADVANCED_FACE ( 'NONE', ( #289 ), #233, .F. ) ;
#198 = AXIS2_PLACEMENT_3D ( 'NONE', #329, #173, #331 ) ;
#199 = AXIS2_PLACEMENT_3D ( 'NONE', #260, #132, #25 ) ;
#200 = CYLINDRICAL_SURFACE ( 'NONE', #13, 12.69999999999999929 ) ;
#201 = CYLINDRICAL_SURFACE ( 'NONE', #16, 7.499999999999998224 ) ;
#202 = DIRECTION ( 'NONE',  ( -1.000000000000000000, 0.000000000000000000, -0.000000000000000000 ) ) ;
#203 = EDGE_CURVE ( 'NONE', #317, #238, #193, .T. ) ;
#204 = DIRECTION ( 'NONE',  ( -1.000000000000000000, -0.000000000000000000, -0.000000000000000000 ) ) ;
#205 = CIRCLE ( 'NONE', #46, 12.69999999999999929 ) ;
#206 = EDGE_CURVE ( 'NONE', #308, #262, #42, .T. ) ;
#207 = DIRECTION ( 'NONE',  ( 0.000000000000000000, 0.000000000000000000, -1.000000000000000000 ) ) ;
#208 = ORIENTED_EDGE ( 'NONE', *, *, #54, .F. ) ;
#209 = CARTESIAN_POINT ( 'NONE',  ( 3.000000000000000000, 0.000000000000000000, 0.000000000000000000 ) ) ;
#210 = ORIENTED_EDGE ( 'NONE', *, *, #280, .T. ) ;
#211 = EDGE_CURVE ( 'NONE', #5, #220, #153, .T. ) ;
#212 = PERSON_AND_ORGANIZATION ( #219, #24 ) ;
#213 = DIRECTION ( 'NONE',  ( -1.000000000000000000, 0.000000000000000000, -0.000000000000000000 ) ) ;
#214 = ORIENTED_EDGE ( 'NONE', *, *, #54, .T. ) ;
#215 = CALENDAR_DATE ( 2021, 5, 1 ) ;
#216 = APPLICATION_PROTOCOL_DEFINITION ( 'international standard', 'config_control_design', 1994, #254 ) ;
#217 = LOCAL_TIME ( 10, 33, 0.000000000000000000, #56 ) ;
#218 = MANIFOLD_SOLID_BREP ( 'Ðý×', #119 ) ;
#219 = PERSON ( 'UNSPECIFIED', 'UNSPECIFIED', 'UNSPECIFIED', ('UNSPECIFIED'), ('UNSPECIFIED'), ('UNSPECIFIED') ) ;
#220 = VERTEX_POINT ( 'NONE', #48 ) ;
#221 = CC_DESIGN_PERSON_AND_ORGANIZATION_ASSIGNMENT ( #110, #107, ( #121 ) ) ;
#222 = DIRECTION ( 'NONE',  ( -1.000000000000000000, -0.000000000000000000, -0.000000000000000000 ) ) ;
#223 = FACE_OUTER_BOUND ( 'NONE', #80, .T. ) ;
#224 = AXIS2_PLACEMENT_3D ( 'NONE', #34, #298, #59 ) ;
#225 = LINE ( 'NONE', #123, #116 ) ;
#226 = CARTESIAN_POINT ( 'NONE',  ( -3.000000000000000000, 0.000000000000000000, 0.000000000000000000 ) ) ;
#227 = CIRCLE ( 'NONE', #242, 7.500000000000000000 ) ;
#228 = CYLINDRICAL_SURFACE ( 'NONE', #69, 7.499999999999998224 ) ;
#229 = CARTESIAN_POINT ( 'NONE',  ( -1.614212418857619014, 0.000000000000000000, 0.000000000000000000 ) ) ;
#230 = CARTESIAN_POINT ( 'NONE',  ( -1.614212418857619014, 1.555301434917138433E-15, -12.69999999999999929 ) ) ;
#231 = ORIENTED_EDGE ( 'NONE', *, *, #105, .F. ) ;
#232 = CC_DESIGN_DATE_AND_TIME_ASSIGNMENT ( #89, #137, ( #103 ) ) ;
#233 = CYLINDRICAL_SURFACE ( 'NONE', #130, 7.499999999999998224 ) ;
#234 = CC_DESIGN_APPROVAL ( #18, ( #121 ) ) ;
#235 = EDGE_CURVE ( 'NONE', #266, #55, #297, .T. ) ;
#236 = LINE ( 'NONE', #230, #307 ) ;
#237 = ADVANCED_FACE ( 'NONE', ( #27 ), #228, .F. ) ;
#238 = VERTEX_POINT ( 'NONE', #101 ) ;
#239 = CALENDAR_DATE ( 2021, 5, 1 ) ;
#240 = CARTESIAN_POINT ( 'NONE',  ( 3.000000000000000000, 9.184850993605144000E-16, -7.499999999999997335 ) ) ;
#241 = COORDINATED_UNIVERSAL_TIME_OFFSET ( 8, 0, .AHEAD. ) ;
#242 = AXIS2_PLACEMENT_3D ( 'NONE', #43, #65, #149 ) ;
#243 = AXIS2_PLACEMENT_3D ( 'NONE', #245, #319, #274 ) ;
#244 = EDGE_CURVE ( 'NONE', #36, #83, #326, .T. ) ;
#245 = CARTESIAN_POINT ( 'NONE',  ( -1.614212418857619014, 0.000000000000000000, 0.000000000000000000 ) ) ;
#246 = FACE_BOUND ( 'NONE', #21, .T. ) ;
#247 = APPROVAL_STATUS ( 'not_yet_approved' ) ;
#248 = ORIENTED_EDGE ( 'NONE', *, *, #203, .F. ) ;
#249 = AXIS2_PLACEMENT_3D ( 'NONE', #283, #314, #151 ) ;
#250 = LINE ( 'NONE', #282, #62 ) ;
#251 = CARTESIAN_POINT ( 'NONE',  ( -1.614212418857619014, 0.000000000000000000, 0.000000000000000000 ) ) ;
#252 = DIRECTION ( 'NONE',  ( -1.000000000000000000, -0.000000000000000000, -0.000000000000000000 ) ) ;
#253 =( GEOMETRIC_REPRESENTATION_CONTEXT ( 3 ) GLOBAL_UNCERTAINTY_ASSIGNED_CONTEXT ( ( #15 ) ) GLOBAL_UNIT_ASSIGNED_CONTEXT ( ( #57, #325, #162 ) ) REPRESENTATION_CONTEXT ( 'NONE', 'WORKASPACE' ) );
#254 = APPLICATION_CONTEXT ( 'configuration controlled 3d designs of mechanical parts and assemblies' ) ;
#255 = ADVANCED_BREP_SHAPE_REPRESENTATION ( 'QM-AAHWP-15-550-750-M', ( #218, #224 ), #253 ) ;
#256 = CARTESIAN_POINT ( 'NONE',  ( -3.000000000000000000, 7.500000000000000000, 0.000000000000000000 ) ) ;
#257 = CARTESIAN_POINT ( 'NONE',  ( 3.000000000000000000, 0.000000000000000000, 12.69999999999999929 ) ) ;
#258 = ADVANCED_FACE ( 'NONE', ( #79 ), #30, .F. ) ;
#259 = DIRECTION ( 'NONE',  ( -1.000000000000000000, -0.000000000000000000, -0.000000000000000000 ) ) ;
#260 = CARTESIAN_POINT ( 'NONE',  ( -0.5000000000000004441, 0.000000000000000000, 0.000000000000000000 ) ) ;
#261 = DIRECTION ( 'NONE',  ( -1.000000000000000000, -0.000000000000000000, -0.000000000000000000 ) ) ;
#262 = VERTEX_POINT ( 'NONE', #257 ) ;
#263 = AXIS2_PLACEMENT_3D ( 'NONE', #37, #22, #145 ) ;
#264 = DIRECTION ( 'NONE',  ( -0.000000000000000000, 0.000000000000000000, 1.000000000000000000 ) ) ;
#265 = VECTOR ( 'NONE', #166, 1000.000000000000000 ) ;
#266 = VERTEX_POINT ( 'NONE', #286 ) ;
#267 = DIRECTION ( 'NONE',  ( -0.000000000000000000, 0.000000000000000000, 1.000000000000000000 ) ) ;
#268 = ORIENTED_EDGE ( 'NONE', *, *, #276, .T. ) ;
#269 = COORDINATED_UNIVERSAL_TIME_OFFSET ( 8, 0, .AHEAD. ) ;
#270 = EDGE_CURVE ( 'NONE', #55, #266, #303, .T. ) ;
#271 = DATE_AND_TIME ( #239, #285 ) ;
#272 = PERSON_AND_ORGANIZATION_ROLE ( 'design_owner' ) ;
#273 = CARTESIAN_POINT ( 'NONE',  ( -3.000000000000000000, 0.000000000000000000, 7.500000000000000000 ) ) ;
#274 = DIRECTION ( 'NONE',  ( 0.000000000000000000, 0.000000000000000000, 1.000000000000000000 ) ) ;
#275 = ORIENTED_EDGE ( 'NONE', *, *, #136, .F. ) ;
#276 = EDGE_CURVE ( 'NONE', #308, #83, #236, .T. ) ;
#277 = ORIENTED_EDGE ( 'NONE', *, *, #270, .F. ) ;
#278 = AXIS2_PLACEMENT_3D ( 'NONE', #209, #177, #311 ) ;
#279 = CARTESIAN_POINT ( 'NONE',  ( 0.5000000000000008882, 0.000000000000000000, 7.500000000000000000 ) ) ;
#280 = EDGE_CURVE ( 'NONE', #262, #308, #205, .T. ) ;
#281 = DIRECTION ( 'NONE',  ( 0.000000000000000000, 0.000000000000000000, 1.000000000000000000 ) ) ;
#282 = CARTESIAN_POINT ( 'NONE',  ( -1.614212418857619014, 9.184850993605145972E-16, -7.499999999999998224 ) ) ;
#283 = CARTESIAN_POINT ( 'NONE',  ( -3.000000000000000000, 0.000000000000000000, 0.000000000000000000 ) ) ;
#284 = FACE_OUTER_BOUND ( 'NONE', #118, .T. ) ;
#285 = LOCAL_TIME ( 10, 33, 0.000000000000000000, #241 ) ;
#286 = CARTESIAN_POINT ( 'NONE',  ( -0.5000000000000004441, 9.184850993605145972E-16, -7.499999999999998224 ) ) ;
#287 = ADVANCED_FACE ( 'NONE', ( #284 ), #44, .F. ) ;
#288 = DIRECTION ( 'NONE',  ( 0.000000000000000000, 0.000000000000000000, 1.000000000000000000 ) ) ;
#289 = FACE_OUTER_BOUND ( 'NONE', #320, .T. ) ;
#290 = ORIENTED_EDGE ( 'NONE', *, *, #150, .F. ) ;
#291 = ADVANCED_FACE ( 'NONE', ( #33 ), #296, .F. ) ;
#292 = ORIENTED_EDGE ( 'NONE', *, *, #244, .T. ) ;
#293 = ORIENTED_EDGE ( 'NONE', *, *, #270, .T. ) ;
#294 = APPROVAL_ROLE ( '' ) ;
#295 = APPROVAL_STATUS ( 'not_yet_approved' ) ;
#296 = CYLINDRICAL_SURFACE ( 'NONE', #243, 7.499999999999998224 ) ;
#297 = CIRCLE ( 'NONE', #10, 7.499999999999998224 ) ;
#298 = DIRECTION ( 'NONE',  ( 0.000000000000000000, 0.000000000000000000, 1.000000000000000000 ) ) ;
#299 = EDGE_CURVE ( 'NONE', #317, #220, #90, .T. ) ;
#300 = DATE_AND_TIME ( #180, #29 ) ;
#301 = ORIENTED_EDGE ( 'NONE', *, *, #160, .T. ) ;
#302 = ORIENTED_EDGE ( 'NONE', *, *, #203, .T. ) ;
#303 = CIRCLE ( 'NONE', #199, 7.499999999999998224 ) ;
#304 = PRODUCT ( 'QM-AAHWP-15-550-750-M', 'QM-AAHWP-15-550-750-M', '', ( #322 ) ) ;
#305 = VERTEX_POINT ( 'NONE', #273 ) ;
#306 = VECTOR ( 'NONE', #70, 1000.000000000000000 ) ;
#307 = VECTOR ( 'NONE', #175, 1000.000000000000000 ) ;
#308 = VERTEX_POINT ( 'NONE', #184 ) ;
#309 = DIRECTION ( 'NONE',  ( -1.000000000000000000, -0.000000000000000000, -0.000000000000000000 ) ) ;
#310 = CARTESIAN_POINT ( 'NONE',  ( -1.614212418857619014, 0.000000000000000000, 0.000000000000000000 ) ) ;
#311 = DIRECTION ( 'NONE',  ( 0.000000000000000000, 0.000000000000000000, 1.000000000000000000 ) ) ;
#312 = ORIENTED_EDGE ( 'NONE', *, *, #60, .T. ) ;
#313 = DATE_AND_TIME ( #164, #217 ) ;
#314 = DIRECTION ( 'NONE',  ( -1.000000000000000000, -0.000000000000000000, -0.000000000000000000 ) ) ;
#315 = EDGE_LOOP ( 'NONE', ( #292, #142 ) ) ;
#316 = DIRECTION ( 'NONE',  ( 1.000000000000000000, 0.000000000000000000, 0.000000000000000000 ) ) ;
#317 = VERTEX_POINT ( 'NONE', #240 ) ;
#318 = CIRCLE ( 'NONE', #17, 7.500000000000000000 ) ;
#319 = DIRECTION ( 'NONE',  ( -1.000000000000000000, -0.000000000000000000, -0.000000000000000000 ) ) ;
#320 = EDGE_LOOP ( 'NONE', ( #159, #41, #161, #214 ) ) ;
#321 = PERSON_AND_ORGANIZATION ( #219, #24 ) ;
#322 = MECHANICAL_CONTEXT ( 'NONE', #254, 'mechanical' ) ;
#323 = FACE_OUTER_BOUND ( 'NONE', #95, .T. ) ;
#324 = ADVANCED_FACE ( 'NONE', ( #323, #246 ), #31, .F. ) ;
#325 =( NAMED_UNIT ( * ) PLANE_ANGLE_UNIT ( ) SI_UNIT ( $, .RADIAN. ) );
#326 = CIRCLE ( 'NONE', #249, 12.69999999999999929 ) ;
#327 = PERSON_AND_ORGANIZATION ( #219, #24 ) ;
#328 = ORIENTED_EDGE ( 'NONE', *, *, #211, .F. ) ;
#329 = CARTESIAN_POINT ( 'NONE',  ( -3.000000000000000000, 0.000000000000000000, 0.000000000000000000 ) ) ;
#330 = APPROVAL_PERSON_ORGANIZATION ( #187, #18, #3 ) ;
#331 = DIRECTION ( 'NONE',  ( 0.000000000000000000, 0.000000000000000000, 1.000000000000000000 ) ) ;
#332 = DIRECTION ( 'NONE',  ( 0.000000000000000000, 0.000000000000000000, 1.000000000000000000 ) ) ;
#333 = PRODUCT_DEFINITION_SHAPE ( 'NONE', 'NONE',  #6 ) ;
#334 = CARTESIAN_POINT ( 'NONE',  ( -0.5000000000000004441, 0.000000000000000000, 0.000000000000000000 ) ) ;
#335 = CARTESIAN_POINT ( 'NONE',  ( 0.5000000000000008882, 0.000000000000000000, 0.000000000000000000 ) ) ;
ENDSEC;
END-ISO-10303-21;
